Ben Ne Yangınlar Gördüm tab, Zakkum Ben Ne Yangınlar Gördüm tabı - akornet
A B C Ç D E F G H I İ J K L M N O Ö P Q R S Ş T U Ü V W X Y Z 0-9
 


 
E-------/--------------------/-------------------
B-------/-1-1----1--1-3-1----/----------------1--
G-0-1-3-/------3---------3---/--3-3---1-0-1-3----
D-------/--------------------/-------------------
A-------/--------------------/-------------------
E-------/--------------------/-------------------


E----------------------/--------------------/----------------------/
B---1----1--1-3-1------/-------------3--1-3-/---1-1----1--1-3-1----/
G------3----------3----/-3-3---1-0-1--------/--------3---------3---/
D----------------------/--------------------/----------------------/
A----------------------/--------------------/----------------------/
E----------------------/--------------------/----------------------/


E--------------------------/---------------/------------------/
B-----------------1--------/-1-------------/------------------/
G--3-3---1-0-1-3-----------/------3-1-1----/--0-1-3---1-0-0---/
D--------------------------/---------------/------------------/
A--------------------------/---------------/------------------/
E--------------------------/---------------/------------------/