Ah İstanbul tab, Sezen Aksu Ah İstanbul tabı - akornet
A B C Ç D E F G H I İ J K L M N O Ö P Q R S Ş T U Ü V W X Y Z 0-9
 


 
Ah İstanbul İstanbul olalı/Hiç görmedi böyle keder 

E------------------/------------
B------------------/-----0-0--0-
G----0-2-2-2-0---2-/----0---0---
D-2-3---------3-2--/-2-3-----2--
A------------------/------------
E------------------/------------

Geberiyorum aşkından/Kalmadı bende gururdan eser

E----------------/-------------------------
B------0-1-0-3-1-/-0-1-3-0-0---0-1-0-------
G-0-0-2----------/----------2-2-----2-0----
D----------------/---------------------3-2-
A----------------/-------------------------
E----------------/-------------------------