İncirler tab, İlyas Yalçıntaş İncirler tabı - akornet
A B C Ç D E F G H I İ J K L M N O Ö P Q R S Ş T U Ü V W X Y Z 0-9
 


 
İncirler olana kadar kalsaydın bari
 
   e-10-10-10-9-10-12-12-10-9--7-5-9-9-7-5---------------
   B-----------------------------------------------------
   G-----------------------------------------------------
   D-----------------------------------------------------
   A----------------------------------------------------- 
   E----------------------------------------------------- 
   
   Onlarca sözden birini tutsaydın bari 
   
   e-7-9-10-9-10-12-10-9-7-5-9-9-7-5---------------------
   B-----------------------------------------------------
   G-----------------------------------------------------
   D-----------------------------------------------------
   A----------------------------------------------------- 
   E----------------------------------------------------- 

   Beni böyle habersizce alıp giderken 

   e-5-7-5-3-5-7-9-7--7-5-9-9-9-7-5----------------------
   B-----------------------------------------------------
   G-----------------------------------------------------
   D-----------------------------------------------------
   A----------------------------------------------------- 
   E----------------------------------------------------- 

   Bavuluna kalbimi de atsaydın bari...

   e-5-7-5-3-5-7-9-7-7-5-9-9-10-9------------------------
   B-----------------------------------------------------
   G-----------------------------------------------------
   D-----------------------------------------------------
   A----------------------------------------------------- 
   E-----------------------------------------------------