Şafak Türküsü tab, Ahmet Kaya Şafak Türküsü tabı - akornet
A B C Ç D E F G H I İ J K L M N O Ö P Q R S Ş T U Ü V W X Y Z 0-9
 


 
e|-5-7-8-7-5-8-7-5---7-5------------5----------7-7-7-5-----|

B|-----------------8-----8-6-5-6~6----8-6-5-5~-------------|

G|---------------------------------------------------------|

D|---------------------------------------------------------|



e|-5-5-7-8-7-5-8-7-5---7-5------------5--------------------|

B|-------------------8-----8-6-5-6~6----8-6-5-5--5-5-5~----|

G|---------------------------------------------------------|

D|---------------------------------------------------------|