Arka Mahalle tab, Ahmet Kaya Arka Mahalle tabı - akornet
A B C Ç D E F G H I İ J K L M N O Ö P Q R S Ş T U Ü V W X Y Z 0-9
 


 
E ---------------------------------------------

B ---------------------------------------------

G ---------------------------------------------

D -----9------9-10h9~------7-9-10-9-7----------

A -7-7----10----------10-----------------------

E ---------------------------------------------





E ---------------------------------------------

B ---------------------------------------------

G ---------------------------------------------

D ---------------------------------------------

A ----10-8-7-8-10-8-7----------------------7---

E ----------------------------------7-8-10-----





E --------------------------------------------

B --------------------------------------------

G --------------------------------------------

D -----9----9-10-9----------------------------

A -7-7---10--------9-10-12--------------------

E -------------------------------------------



                     

E -*----------------------------------------*-

B -*----------------------------------------*-

G -*----------------------------------------*-

D -*--9-------------------------------------*-

A -*----12-10-9-10-9-7----7-----------------*-

E -*-------------------10----10-8-7-8-10-7--*-