We Wont Be tab, Zack Hexum We Wont Be tabı - akornet
A B C Ç D E F G H I İ J K L M N O Ö P Q R S Ş T U Ü V W X Y Z 0-9
 


 
A    Am   A7 Adim7  B7   C  Cmaj7  D    D7   D7*  Em   F    G    G7  G&B

D]---x----0----0----2----1----0----0----2----2----5----0----1----3----1----3---|

B]---2----1----2----1----0----1----0----3----1----x----0----1----0----0----0---|

G]---2----2----0----2----2----0----0----2----2----5----0----2----0----0----0---|

D]---2----2----2----1----1----2----2----0----0----4----2----3----0----0----0---|

G]---4----0----0---------2----3----3--------------5----2----3----2----2----2---|

D]-----------------------------------------------------0----1----3----3----x---|







 INTRO:

    G         C        G   G      A7  D   D7  G   G7  C        Am   C    D       G  Cmaj7 G   Cmaj7

e]------------x-------------------x---2---2---3---1---x---0----0----x------------3-3-0-0--3-3-0-0-|

B]--x----0-3--1-0------x---x---0--2---3---1---0---0---1-3---1--1----1-0----------0-0-0-0--0-0-0-0-|

G]--0--2------0---2-0--0---0-2----0---2---2---0---0---0--------0h2--0----2h4-2-0-0-0-0-0--0-0-0-0-|

D]--0---------2--------0---0------2---0---0---0---0---2--------0h2--2----0-------0-0-2-2--0-0-2-2-|

A]--2---------3--------2---2------0-----------2---2---3--------0----3------------2-2-3-3--2-2-3-3-|

E]--3------------------3---3------------------3---3------------------------------3-3------3-3-----|







 VERSE 1:

G       Cmaj7 Em             Cmaj7

  Say goodbye - let's get it over

G              Cmaj7            F       D

  Shielded the gun behind the hearts

G       Cmaj7 Em           Cmaj7

  You and I -- too much to cover

G        Cmaj7              F          D

  We ran out of bricks to build and throw







 BRIDGE 1:

Em           G   Em       G

  You're no devil, I'm no angel

       C         B7          Em     A7

  But heaven is just out of reach

Em           G     C    A         D       Adim7

  Just stop crying, I'll keep on walking

            Em               A7                  D7*

  It's the next door to the heart that makes me weak







 CHORUS 1:

G      G&B      C            G    G               A7   D   D7

  If I see you in a hundred years, and you still love me

  G       G7  C            Am

  I will try, I will try again

         C       D              Em   A7

  Though I know you and I won't be

        C       D               G

  Yeah, I know you and I won't be







 INTERLUDE:

    G         C        G   G      A7  D     D7  G   G7  C        Am    C     D       G

e]--------------------------------x---2-2---2---3---1-------0----0-----x---------------33333333--|

B]--x----0-3--1p0------x---x---0--2---3-3---1---0---0---1-3---1--1-----1-0-------------00000000--|

G]--0--2----------2-0--0---0-2----0---2-2---2---0---0------------0h2---0-----2h4-2---0-00000000--|

D]--0------------------0---0------2---0-0---0---0---0------------0h2---2-----0---------00000000--|

A]--2------------------2---2------0-------------2---2------------0-----3---------------22222222--|

E]--3------------------3---3--------------------3---3----------------------------------33333333--|







 BRIDGE 2:

Em        G   Em           G

  I'm no devil, you're no angel

       C         B7          Em     A7

  But heaven is just out of reach

Em           G     C    A         D       Adim7

  Just stop crying, I'll keep on walking

            Em               A7                  D7*

  It's the next door to the heart that makes me weak







 CHORUS 2&OUTRO:

G      G&B      C            G    G               A7   D   D7

  If I see you in a hundred years, and you still love me

  G       G7  C            Am

  I will try, I will try again

         C       D              Em   A7

  Though I know you and I won't be

        C       D               G

  Yeah, I know you and I won't be