Ölmemişiz tab, Yüzyüzeyken Konuşuruz Ölmemişiz tabı - akornet
A B C Ç D E F G H I İ J K L M N O Ö P Q R S Ş T U Ü V W X Y Z 0-9
 


 
e------------------------------------------------------------------------------
 B-------------8-7-8-7------------------8-7-8-7---------------------------------
 G-----5-8-7-----------8-7-5-4--5-8-7-----------8-7-5-4------------------------- 
 D------------------------------------------------------------------------------
 A------------------------------------------------------------------------------
 E------------------------------------------------------------------------------


 e------------------------------------------------------------------------------
 B--------8-7------------8-7------------8-7-------------------------------------
 G------5-----8-7-8----------8-7-8----------8-7-5---4---------------------------
 D------------------------------------------------------------------------------
 A------------------------------------------------------------------------------
 E------------------------------------------------------------------------------

 e------------------------------------------------------------------------------
 B--------8-7------------8-7------------8-7-------------------------------------
 G------5-----8-7-8----------8-7-8----------8-7-5-------------------------------
 D------------------------------------------------------------------------------
 A------------------------------------------------------------------------------
 E------------------------------------------------------------------------------

 e------------------------------------------------------------------------------
 B------------------------------------------------------------------------------
 G------8-7--8-7--8-7--5---5-4-5-7-8-7--8-7--8-7-5------------------------------  
 D------------------------------------------------------------------------------
 A------------------------------------------------------------------------------
 E------------------------------------------------------------------------------

 e------------------------------------------------------------------------------
 B------8-7-------8--7------8--7------------------------------------------------
 G----------8-7-8-------8-7------8-7-5------------------------------------------
 D------------------------------------------------------------------------------
 A------------------------------------------------------------------------------
 E------------------------------------------------------------------------------

 e------------------------------------------------------------------------------
 B--------8-7------------8-7------------8-7-------------------------------------
 G------5-----8-7-8----------8-7-8----------8-7-5---4-5-7-----------------------
 D------------------------------------------------------------------------------
 A------------------------------------------------------------------------------
 E------------------------------------------------------------------------------

 e------------------------------------------------------------------------------
 B------------------------------------------------------------------------------
 G------8-7--8-7--8-7--5---5-4-5-7-8-7--8-7--8-7--5--5-4-5-7-------------------- x2
 D------------------------------------------------------------------------------
 A------------------------------------------------------------------------------
 E------------------------------------------------------------------------------

 e------------------------------------------------------------------------------
 B-----------------------------8-7----------------------------------------------
 G------8-7--8-7--8-7--4-5-----------8--8-7-4-5---------------------------------    
 D------------------------------------------------------------------------------
 A------------------------------------------------------------------------------
 E------------------------------------------------------------------------------