Ağustos Gökleri tab, Yok Öyle Kararlı Şeyler Ağustos Gökleri tabı - akornet
A B C Ç D E F G H I İ J K L M N O Ö P Q R S Ş T U Ü V W X Y Z 0-9
 


 
E--------------------------------
B--------------------------------
G----------9---------------------
D-----9-10---10-9-10-------------
A--------------------------------
E--------------------------------  x2

E--------------------------------
B--------------------------------
G----------10--------------------
D-----9-10---10-9-10-------------
A--------------------------------
E--------------------------------  x2

E--------------------------------
B------9-7-5-7-4-----------------
G--------------------------------
D--------------------------------
A--------------------------------
E--------------------------------  x1