Normal Mi Sence tab, Vega Normal Mi Sence tabı - akornet
A B C Ç D E F G H I İ J K L M N O Ö P Q R S Ş T U Ü V W X Y Z 0-9
 


 
Dm                              G             Bb
E---------------------------------------------------------------
B-----------------------------------------0---------------------
G-----------2--------------2-----------------------------3------
D-----3--------3-----3--------3-----3--------3-----3------------
A--5-----5--------5-----5--------5-----5--------5-----5---------
E---------------------------------------------------------------


             Dm                              G             Bb 
E---------------------------------------------------------------
B--------------------------------------------0------------------
G--------------2--------------2-----------------------------3---
D--3-----3--------3-----3--------3-----3--------3-----3---------
A-----5-----5--------5-----5--------5-----5--------5-----5------
E---------------------------------------------------------------