Gül Güzeli tab, Umut Kaya Gül Güzeli tabı - akornet
A B C Ç D E F G H I İ J K L M N O Ö P Q R S Ş T U Ü V W X Y Z 0-9
 


 
E||----------------------------------------------------------|
B||----------------------------------------------------------|
G||----------------------------------------------------------|  Eğer bir masal perisi
D||----------------------------------------------------------|
A||-------5---5------4---4----2---2-----1~----------------|
E||----2----2----------2--------2----------------------------|

E||------------------------------------------------------------------------------|
B||------------------------------------------------------------------------------|
G||------------------------------------------------------------------------------|  Girerse rüyalarına
D||-------------------------------------------------------------------------------|
A||-------5---5-------4---4----2---2-----1~-------------------|
E||----2----2-----------2--------2----------------------------------|

E||-----------------------------------------------------|
B||-----------------------------------------------------|  Öldü dersin gül güzeli
G||-----------------------------------------------------|  
D||-----------------------------------------------------|  Tılsımını kaybetti
A||---4---4-5-4------2---2-2---------------2---1-------------|
E||--------------------------3-----3---3-3-------3-2~-------|