Nikah Masası tab, Ümit Besen Nikah Masası tabı - akornet
A B C Ç D E F G H I İ J K L M N O Ö P Q R S Ş T U Ü V W X Y Z 0-9
 


 
e|-----8-7-8-7-8-7-5-7---7-5-7--------7-5-7-5-7-5-3-5--5-3-5|
B|----------------------------------5-----------------------|
G|--9-------------------------------------------------------|
D|----------------------------------------------------------|

e|--5--5-3-5-3-5-3--3--3--3-2-3--1-0-1-0-1-3-5-7------------|
B|-----------------------------------------------8-6-6-5-5--|
G|----------------------------------------------------------|
D|----------------------------------------------------------|