İstanbul Sokakları tab, Ümit Besen İstanbul Sokakları tabı - akornet
A B C Ç D E F G H I İ J K L M N O Ö P Q R S Ş T U Ü V W X Y Z 0-9
 


 
Söy  leyin    sevgilim           nerde?             istanbul              sokakları  
E--10---12-12--12-13-10---15-13-12-12---12-12-13-12-10--10-10-12-8-7
B-----------------------------------------------------------------
G------------------------------------------------------------------  

   Çare bulun             bu derdime          İstanbul        sokakları

E--10-12-12-12----10-10-12-8-7------0-1-0-6-5-3----3-3-5-1-0
B-----------------------------------------------------------------
G------------------------------------------------------------------  

   Onu  benden siz aldınız,  Onu benden siz çaldınız

E--7-7--7-7----5-7-5-7-8-5---3-5-5-5----3-5-3-5-7-3
B-----------------------------------------------------------------
G------------------------------------------------------------------  
      
   Simdi  yalniz  bıraktınız ,    İstanbul       sokakları

E--1-3---3-3-----1-3-1-3-5-1-----0-1-0-6-5-3----3-3-5-1-0
B-----------------------------------------------------------------
G------------------------------------------------------------------