Bir Sevmek Bin Defa Ölmek Demekmiş tab, Üç Hürel Bir Sevmek Bin Defa Ölmek Demekmiş tabı - akornet
A B C Ç D E F G H I İ J K L M N O Ö P Q R S Ş T U Ü V W X Y Z 0-9
 


 
1)----------------------------------------------------------        
2)-0-0-5-3-5-5-3-1-0-1--/--1-1-1-1-1-1-0--/--0-1-3-1-0---0--
3)-----------------------------------------------------2----
4)----------------------------------------------------------
5)----------------------------------------------------------
6)----------------------------------------------------------


1)-0-0------------------------------------------------------
2)-----3-1-0-----------0-1-0--------------------------------
3)-----------2-0-2--/2-------2-0----------------------------
4)-------------------------------3--/--3-3-3-3-3-3-2--------
5)----------------------------------------------------------
6)----------------------------------------------------------

1)----------------------------------------------------------
2)----------------------------------------------------------
3)-----0----------------------------------------------------
4)-2-3---3-2-0-2--------------------------------------------
5)----------------------------------------------------------
6)----------------------------------------------------------