Pas tab, Soner Sarıkabadayı Pas tabı - akornet
A B C Ç D E F G H I İ J K L M N O Ö P Q R S Ş T U Ü V W X Y Z 0-9
 


 
e-----------------------------------
---------2--3---------3--2--------
-------4----------------------4-2--
-----4--------------4--------------
---2--------------2----------------
E-----------------------------------(2x)

2.Kısım (F#m akoru)
e-----------------
-----------2-----
---------2-------
-------4------4--
-----4-----------
E--2-------------

3.Kısım (Bm akoru)
e------------------
--3---------------
----4--2----------
----------4-------
------------------
E------------------

4. kısım (G# akoru)
e-------------------------
--------------------------
---------5-----5----5----
-------6-----6----6------
-----6-----6-----6--------
E--4----------------------