The Show Must Go On tab, Quenn The Show Must Go On tabı - akornet
A B C Ç D E F G H I İ J K L M N O Ö P Q R S Ş T U Ü V W X Y Z 0-9
 


 
E|----------------|----------------|----------------|----------------|
B|-3-3-3-3-2-2-2-2|-0-0-0-0-3-3-3-3|-3-3-3-3-2-2-2-2|-5-5-5-5-3-3-3-3|
G|-4-4-4-4-4-4-4-4|-4-4-4-4-4-4-4-4|-0-0-0-0-0-0-0-0|-0-0-0-0-0-0-0-0|
D|-4-4-4-4-4-4-4-4|-4-4-4-4-4-4-4-4|-0-0-0-0-0-0-0-0|-0-0-0-0-0-0-0-0|
A|----------------|----------------|----------------|----------------|
E|----------------|----------------|----------------|----------------|

E|----------------|----------------|----------------|----------------|
B|-3-3-3-3-3-3-3-3|-2-2-2-2-2-2-2-2|-0--------------|-2--------------|
G|-0-0-0-0-4-4-4-4|-4-4-4-4-3-3-3-3|-0--------------|-0--------------|
D|-0-0-0-0-4-4-4-4|-4-4-4-4-4-4-4-4|-2--------------|-0--------------|
A|----------------|----------------|----------------|----------------|
E|----------------|----------------|----------------|----------------|


solo

|-------------------------------________-------------14-15-17-b19---|
|-------------------------14-15-14h15p14----14-15-17----------------|
|-16-14----14-16----14-16----------------16-------------------------|
|-------16-------16-------------------------------------------------|
|-------------------------------------------------------------------|
|-------------------------------------------------------------------|

|-21-b22rbrbr21p19-b22---21--19-21p19----19----19----------|
|-------------------------------------21----22----22b24...-|
|----------------------------------------------------------|
|----------------------------------------------------------|
|----------------------------------------------------------|
|----------------------------------------------------------|


|...17b19---------------------------------------14-15-17-b19r17b19vv--|
|--------------14-16-14-16p14-16p14----14-15-17-----------------------|
|---------\/16----------------------16--------------------------------|
|---------------------------------------------------------------------|
|---------------------------------------------------------------------|
|---------------------------------------------------------------------|

|-14-------17b19----17b19----b19v--------22b24-22---22-19----19------------|
|----17-15----------------------------15------------------19----22b24vv..--|
|--------------------------------------------------------------------------|
|--------------------------------------------------------------------------|
|--------------------------------------------------------------------------|
|--------------------------------------------------------------------------|