Değmesin Ellerimiz tab, Model Değmesin Ellerimiz tabı - akornet
A B C Ç D E F G H I İ J K L M N O Ö P Q R S Ş T U Ü V W X Y Z 0-9
 


 
Gm           Dm              F           C
E--------------------------------------------------------
B--------------------------------------------------------
G-------7-5-------5---------5-------5--------------------
D-5---5-----8-7-8---8-7-7-8---7---7---8-7-8-7-5--------5-
A---5---------------------------5---------------5-7--8---
E--------------------------------------------------------

 Gm           Dm              F           C
E--------------------------------------------------------
B-----------------------------------------5---5-6-8-6-5--
G-------7-5-------5---------5-------5-------5------------
D-5---5-----8-7-8---8-7-7-8---7---7---8-7----------------
A---5---------------------------5------------------------
E--------------------------------------------------------