Eşkıya Dünyaya Hükümdar Olmaz tab, Hüseyin Ay Eşkıya Dünyaya Hükümdar Olmaz tabı - akornet
A B C Ç D E F G H I İ J K L M N O Ö P Q R S Ş T U Ü V W X Y Z 0-9
 


 
E|--1--2--2--2--1---------6--4--2--1-----------1--2--2--1--2------1--2--2--2--2--1--1------------------------------------
B|-----------------4-------------------4--2--4-------------------------------------- --4--4--2--5h4--2--2--0--2--0-------
G|------------------------------------------------------------------------------------------------------------------3--3-
D|-----------------------------------------------------------------------------------------------------------------------
A|-----------------------------------------------------------------------------------------------------------------------
E|-----------------------------------------------------------------------------------------------------------------------




E|--4--6--6--6--4--6--4--6--7--9--7--6--6--4--6--7--7--6--6--4--4--2--2--4--6--4--2--2--1--1--------
B|--------------------------------------------------------------------------------------------------
G|--------------------------------------------------------------------------------------------------
D|--------------------------------------------------------------------------------------------------
A|--------------------------------------------------------------------------------------------------
E|--------------------------------------------------------------------------------------------------



E|--1--2--2--2--1---------6--4--2--1-----------1--2--2--1--2------1--2--2--2--2--1--1------------------------------------
B|-----------------4-------------------4--2--4-------------------------------------- --4--4--2--5h4--2--2--0--2--0-------
G|------------------------------------------------------------------------------------------------------------------3--3-     (x2)
D|-----------------------------------------------------------------------------------------------------------------------
A|-----------------------------------------------------------------------------------------------------------------------
E|-----------------------------------------------------------------------------------------------------------------------



E|--4--6--6--6--4--6--4--6--7--9--7--6--6--4--6--7--7--6--6--4--4--2--2--4--6--4--2--2--1--1--------
B|--------------------------------------------------------------------------------------------------
G|--------------------------------------------------------------------------------------------------
D|--------------------------------------------------------------------------------------------------
A|--------------------------------------------------------------------------------------------------
E|--------------------------------------------------------------------------------------------------



E|--1--2--2--2--1---------6--4--2--1-----------1--2--2--1--2------1--2--2--2--2--1--1------------------------------------
B|-----------------4-------------------4--2--4-------------------------------------- --4--4--2--5h4--2--2--0--2--0-------
G|------------------------------------------------------------------------------------------------------------------3--3-
D|-----------------------------------------------------------------------------------------------------------------------
A|-----------------------------------------------------------------------------------------------------------------------
E|-----------------------------------------------------------------------------------------------------------------------

 Paylaşan Üye: Yılmaz Erçelik (Kocaeli)