Sevdam tab, Gökhan Türkmen Sevdam tabı - akornet
A B C Ç D E F G H I İ J K L M N O Ö P Q R S Ş T U Ü V W X Y Z 0-9
 


 
E:--5-7-8---8/10-8-7-8-7----------        )
B:--------------------------------        )
G:--------------------------------        )
D:--------------------------------        )     *2
A:--------------------------------        )
E:--------------------------------        )


E:--3-5-7-7/8-7-5-7-5-3---------
B:------------------------------
G:------------------------------ 
D:------------------------------ 
A:------------------------------ 
E:------------------------------ 

E :-0-1-3-3/5-3-1-3-0----------        )
B:-----------------------------        )
G:-----------------------------        )
D:-----------------------------        )       *2
A:-----------------------------        )
E:-----------------------------        )

E:--5-7-8---8/10-8-7-8-7----------        )
B:--------------------------------        )
G:--------------------------------        )
D:--------------------------------        )     *2
A:--------------------------------        )
E:--------------------------------        )


E:--5-7-8---8/10-8-7--8/12----10-8-7-------        )
B------------------------------------------        )
G------------------------------------------        )
D------------------------------------------        )     
A------------------------------------------        )
E:-----------------------------------------        )


E:--3-5-7-7/8-7-5-7-5-3---------
B:------------------------------
G:------------------------------ 
D:------------------------------ 
A------------------------------- 
E:------------------------------ 

E :-0-1-3-3/5-3-1-3-0----------        )
B:-----------------------------        )
D:-----------------------------        )
G:-----------------------------        )       *2
B:-----------------------------        )
E:-----------------------------        )