Gayret Et Güzelim tab, Düş Sokağı Sakinleri Gayret Et Güzelim tabı - akornet
A B C Ç D E F G H I İ J K L M N O Ö P Q R S Ş T U Ü V W X Y Z 0-9
 


 
e----------------------------------------------------      
B---------------------------------------------------- 
G—4s6-6-6-4-6-4-6-6s7-4-6-4-2-1-2-1------------------   
D-----------------------------------4-2-2s4-2-0-2----    
A----------------------------------------------------  
E---------------------------------------------------- 

e---------------------------------------------------- 
B----------------------------------------------------   
G----------------------------------------------------    
D-2-0-2-0-2-0-2-4-4s7-------------------------------- 
A----------------------4-5-5s7-5---4-----------------  
E--------------------------------7------------------- 

2 tekrar

e----------------------------------------------------     
B----------------------------------------------------   
G —4s6-6-6-4-6-4-6-6s7-4-6-4-2-1-2-1-----------------     
D------------------------------------4-2-2s4-2-0-2---   
A----------------------------------------------------  
E---------------------------------------------------- 

e----------------------------------------------------
B----------------------------------------------------
G--------------------------------P.O-----------------
D-2-0-2-0-2-0-2-4-4s7—7-6-4-2-0- 2-0-----------------
A--------------------------------------4-------------

 Paylaşan Üye: Mert Akbas ()