Senden Daha Güzel tab, Duman Senden Daha Güzel tabı - akornet

Gitar akorları, şarkı sözleri ve müzik sektörü haberleri

A B C Ç D E F G H I İ J K L M N O Ö P Q R S Ş T U Ü V W X Y Z 0-9
 
Intro/Verse:
(Lead Guitar:Batuhan)               (X2)
e|-------------------------------------------------------------------------|
B|-------------------------------------------------------------------------|
G|----X----X----X----X----X------------X----X----X----X----X---------------|
D|----X----X----X----X----X-Drum fills-X----X----X----X----X---------------|
A|----X----X----X----X----X------------X----X----X----X----X---------------|
E|----X----X----X----X----X------------X----X----X----X----X---------------|

Pre-Chorus:
(Rythm Guitar:Kaan)
Sana nerden rastladim,oldum derbeder...          (X2)
e|-0---0---0---0---2---2---2---2---0---0---0---0---------------------------|
B|-1---1---1---1---4---4---4---4---1---1---1---1---------------------------|
G|-2---2---2---2---4---4---4---4---2---2---2---2---------------------------|
D|-2---2---2---2---4---4---4---4---2---2---2---2---------------------------|
A|-0---0---0---0---2---2---2---2---0---0---0---0---------------------------|
E|-------------------------------------------------------------------------|

Chorus:
(Rhytm Guitar:Kaan)              (X4)
Ah aaah senden daha guzel...
e|-0---0---0---0---2---2---2---2-------------------------------------------|
B|-1---1---1---1---4---4---4---4-------------------------------------------|
G|-2---2---2---2---4---4---4---4-------------------------------------------|
D|-2---2---2---2---4---4---4---4-------------------------------------------|
A|-0---0---0---0---2---2---2---2-------------------------------------------|
E|-------------------------------------------------------------------------|

(Lead Guitar:Batuhan)            (X4)
e|-------------------------------------------------------------------------|
B|-5-5-5--5-5--5-|-5-5-5--5-5--5-|-7-7-7--7-7--7-|-7-7-7--7-7--7-----------|
G|-------------------------------------------------------------------------|
D|-------------------------------------------------------------------------|
A|-------------------------------------------------------------------------|
E|-------------------------------------------------------------------------|

Solo 1:
(Lead Guitar:Batuhan)
e|-------------------|-7--5----------|--------------------|----------------|
B|-5-5-5--5--7-8--7--|-------8--7-8--|-5-5-5--5---7--8-7--|-5-5------------|
G|-------------------|---------------|--------------------|------8--5-5----|
D|-------------------|---------------|--------------------|----------------|
A|-------------------|---------------|--------------------|----------------|
E|-------------------|---------------|--------------------|----------------|

e|-------------------|-7--5----------|--------------------|----------------|
B|-5-5-5--5--7-8--7--|-------8--7-8--|-5-5-5--5---7--8-7--|-5-5------------|
G|-------------------|---------------|--------------------|------8--5-5----|
D|-------------------|---------------|--------------------|----------------|
A|-------------------|---------------|--------------------|----------------|
E|-------------------|---------------|--------------------|----------------|

e|-------------------|----------------|------------------|-----------------|
B|-------------------|-5-5------------|------------------|-8--7--8-7--5-5--|
G|-Drum fills--------|------8--5-5----|--Drum fills------|-----------------|
D|-------------------|----------------|------------------|-----------------|
A|-------------------|----------------|------------------|-----------------|
E|-------------------|----------------|------------------|-----------------|

e|-------------------|-7--5--7-5------|-5--7---8--7-|-7---11--12--14-------|
B|-------------------|------------8-8-|-------------|----------------------|
G|-Drum fills--------|----------------|-------------|----------------------|
D|-------------------|----------------|-------------|----------------------|
A|-------------------|----------------|-------------|----------------------|
E|-------------------|----------------|-------------|----------------------|

(Rhytm Guitar:Kaan)     (X4)
e|-------------------------------------------------------------------------|
B|-------------------------------------------------------------------------|
G|-X----X----X----X----X----X----X----X----X-------------------------------|
D|-X----X----X----X----X----X----X----X----X-------------------------------|
A|-X----X----X----X----X----X----X----X----X-------------------------------|
E|-X----X----X----X----X----X----X----X----X-------------------------------|

Pre-Chorus:
(Rhytm Guitar:Kaan)            (X2)
e|-0---0---0---0-|-2---2---2---2-|-0---0---0---0-|-------------------------|
B|-1---1---1---1-|-4---4---4---4-|-1---1---1---1-|-------------------------|
G|-2---2---2---2-|-4---4---4---4-|-2---2---2---2-|-----Drum fills----------|
D|-2---2---2---2-|-4---4---4---4-|-2---2---2---2-|-------------------------|
A|-0---0---0---0-|-2---2---2---2-|-0---0---0---0-|-------------------------|
E|---------------|---------------|---------------|-------------------------|

Chorus:
(Rhytm Guitar:Kaan)            (X4)
e|-0---0---0---0---2---2---2---2-------------------------------------------|
B|-1---1---1---1---4---4---4---4-------------------------------------------|
G|-2---2---2---2---4---4---4---4-------------------------------------------|
D|-2---2---2---2---4---4---4---4-------------------------------------------|
A|-0---0---0---0---2---2---2---2-------------------------------------------|
E|-------------------------------------------------------------------------|

(Lead Guitar:Batuhan)          (X4)
e|-------------------------------------------------------------------------|
B|-5-5-5--5-5--5-|-5-5-5--5-5--5-|-7-7-7--7-7--7-|-7-7-7--7-7--7-----------|
G|-------------------------------------------------------------------------|
D|-------------------------------------------------------------------------|
A|-------------------------------------------------------------------------|
E|-------------------------------------------------------------------------|

Solo 2:
(Lead Guitar:Batuhan)
e|-------------------|-7--5----------|--------------------|----------------|
B|-5-5-5--5--7-8--7--|-------8--7-8--|-5-5-5--5---7--8-7--|-5-5------------|
G|-------------------|---------------|--------------------|------8--5-5----|
D|-------------------|---------------|--------------------|----------------|
A|-------------------|---------------|--------------------|----------------|
E|-------------------|---------------|--------------------|----------------|

e|-------------------|-7--5----------|--------------------|----------------|
B|-5-5-5--5--7-8--7--|-------8--7-8--|-5-5-5--5---7--8-7--|-5-5------------|
G|-------------------|---------------|--------------------|------8--5-5----|
D|-------------------|---------------|--------------------|----------------|
A|-------------------|---------------|--------------------|----------------|
E|-------------------|---------------|--------------------|----------------|

e|-------------------|----------------|------------------|-----------------|
B|-------------------|-5-5------------|------------------|-8--7--8-7--5-5--|
G|-Drum fills--------|------8--5-5----|--Drum fills------|-----------------|
D|-------------------|----------------|------------------|-----------------|
A|-------------------|----------------|------------------|-----------------|
E|-------------------|----------------|------------------|-----------------|

e|-------------------|-7--5--7-5------|-5--7---8--7-|-7---11--12--14/--15--|
B|-------------------|------------8-8-|-------------|----------------------|
G|-Drum fills--------|----------------|-------------|----------------------|
D|-------------------|----------------|-------------|----------------------|
A|-------------------|----------------|-------------|----------------------|
E|-------------------|----------------|-------------|----------------------|

e|-12-12--12--14-15--14|-19--17--15--14/-15-|-12-12--12--14/-15-14|--------|
B|---------------------|--------------------|---------------------|--------|
G|---------------------|--------------------|---------------------|Drum fills
D|---------------------|--------------------|---------------------|--------|
A|---------------------|--------------------|---------------------|--------|
E|---------------------|--------------------|---------------------|--------|

e|-12-12--12--14-15--14|-19--17--15--14/-15-|---------------------|--------|
B|---------------------|--------------------|---------------------|--------|
G|---------------------|--------------------|--Drum fills---------|--------|
D|---------------------|--------------------|---------------------|--------|
A|---------------------|--------------------|---------------------|--------|
E|---------------------|--------------------|---------------------|--------|

(Rhytm Guitar:Kaan)         (X11)
e|-------------------------------------------------------------------------|
B|-------------------------------------------------------------------------|
G|-X----X----X----X----X----X----X----X----X-------------------------------|
D|-X----X----X----X----X----X----X----X----X-------------------------------|
A|-X----X----X----X----X----X----X----X----X-------------------------------|
E|-X----X----X----X----X----X----X----X----X-------------------------------|