Filinta tab, Dizi Müzikleri Filinta tabı - akornet
A B C Ç D E F G H I İ J K L M N O Ö P Q R S Ş T U Ü V W X Y Z 0-9
 


 
Ana Tema 

e ----7---7----7-5-7-9-5-3 
B --7---7-----------------

e ----7---7-9-10-9-7--9--5 
B --7---7-----------------
  
e ----7---7----7-5-7-9-5-3 
B --7---7-----------------

e ----7---7-9-10-9-5--7--- 
B --7---7-----------------

 Paylaşan Üye: Yakuphan Gökgöz ()