Selvi Boylum Al Yazmalım tab, Cahit Berkay Selvi Boylum Al Yazmalım tabı - akornet
A B C Ç D E F G H I İ J K L M N O Ö P Q R S Ş T U Ü V W X Y Z 0-9
 


 
e |-0---10-9-10-7--|-7h8p7---7------|----7-----------|----------------|
B |----------------|-------8---10---|-10---10--7-8---|-7-8-10-7~~~----|
G |-9--------------|----------------|----------------|--------------9-|
D |----------------|----------------|----------------|----------------|
A |----------------|----------------|----------------|----------------|
E |----------------|----------------|----------------|----------------|



e |----------------|----------------|----------------|----------------|
B |-7-8-10~8-12----|-10-10~~~-------|-7h8---7-8-10-7-|-----8-7-8-10-7-|
G |----------------|----------------|----------------|-9-7------------|
D |----------------|----------------|----------------|----------------|
A |----------------|----------------|----------------|----------------|
E |----------------|----------------|----------------|----------------|



e |------10-9-10-7-|-7h8p7---7------|----7-----------|----------------|
B |----------------|-------8---10---|-10---10--7-8---|-7-8-10-7~~~----|
G |9-9~~~----------|----------------|----------------|--------------9-|
D |----------------|----------------|----------------|----------------|
A |----------------|----------------|----------------|----------------|
E |----------------|----------------|----------------|----------------|


e |----------------|----------------|----------------|----------------|
B |-7-8-10~8-12----|-10-10~~~-------|-7h8---7-8-10-7-|-----8-7-8-10-7-|
G |----------------|----------------|----------------|-9-7------------|
D |----------------|----------------|----------------|----------------|
A |----------------|----------------|----------------|----------------|
E |----------------|----------------|----------------|----------------|



e |----------------|----------------|----------------|----------------|
B |----------------|----------------|----------------|----------------|
G |-9~~~~~~--------|----------------|----------------|----------------|
D |----------------|----------------|----------------|----------------|
A |----------------|----------------|----------------|----------------|
E |----------------|----------------|----------------|----------------|