Devlerin Aşkı tab, Cahit Berkay Devlerin Aşkı tabı - akornet
A B C Ç D E F G H I İ J K L M N O Ö P Q R S Ş T U Ü V W X Y Z 0-9
 


 
e--3h5---7-8-7-5---2-3-2-0-------------------------------------------------------------
b--------------------------1-3-1-0-----------------------------------------------------
g-----------------------------------2-0-2----------------------------------------------
d--------------------------------------------------------------------------------------
a--------------------------------------------------------------------------------------
e--------------------------------------------------------------------------------------

e--------------3-1-0----5-3-3--7-5-5--8-7-7--10-8-8--12-10-10--13-12-12----------------
b--------0-3-1-------------------------------------------------------------------------
g--2-2-2-------------------------------------------------------------------------------    
d--------------------------------------------------------------------------------------
a--------------------------------------------------------------------------------------
e--------------------------------------------------------------------------------------

e--8-7-5-8-7-7---5h3-3---7-5-3-7-5-5-7h8-----------------------------------------------
b--------------------------------------------------------------------------------------
g--------------------------------------------------------------------------------------
d--------------------------------------------------------------------------------------
a--------------------------------------------------------------------------------------
e--------------------------------------------------------------------------------------

e--8-7-5-8-7-7---5h3-3---7-5-3-7-5-5-5--5-5--------------------------------------------
b--------------------------------------------------------------------------------------
g--------------------------------------------------------------------------------------
d--------------------------------------------------------------------------------------
a--------------------------------------------------------------------------------------
e--------------------------------------------------------------------------------------