Oflaya Oflaya tab, Burcu Güneş Oflaya Oflaya tabı - akornet
A B C Ç D E F G H I İ J K L M N O Ö P Q R S Ş T U Ü V W X Y Z 0-9
 


 
e-----8-7-8---------|
b--5-----------5--5-|
g-------------------|
d-------------------|
a-------------------|
E-------------------|

e-----8-7-8---------|
b--5-----------5--5-|
g-------------------|
d-------------------|
a-------------------|
E-------------------|

e-----5------5-------|
b--------8-----------|
g--5-----------5--5--|
d--------------------|
a--------------------|
E--------------------|


e-----5------5-------|
b--------8-----------|
g--5-----------5--5--|
d--------------------|
a--------------------|
E--------------------|


e------------------------------------------------|
b------------------------------------------------|
g---4--5--4--------4---------4-5-4-5p-7-5-7p-9---|
d-------------7--------5--7----------------------|
a------------------------------------------------|
E------------------------------------------------|