Penceresiz Kaldım Anne tab, Ahmet Kaya Penceresiz Kaldım Anne tabı - akornet
A B C Ç D E F G H I İ J K L M N O Ö P Q R S Ş T U Ü V W X Y Z 0-9
 


 
E-----0-0-0-0-3-3-2-0-2-0-------------
B--------------------------------3----------


E---------0----0--2--2--0-----0------------
B------3----3----------------3------3--1-----


E-----------------0--0----------------------
B-----1-1-1-1---------3-1-3-1-0---------


E-----2--2--2--2--3--5--3--2-------------
B----------------------------------------------