Best For Last Bass tab, Adele Best For Last Bass tabı - akornet
A B C Ç D E F G H I İ J K L M N O Ö P Q R S Ş T U Ü V W X Y Z 0-9
 


 
G---------------------0-----------------------------------------------------|
D--------4------------2-----------4-------------2---------------------------|
A--------5------------------------5-------------3------------0-----------3--|
E---------------------------------------------------------------------------|


G---------------------0-----------2-----------4--------2---------0----------|
D--------4------------2-----------4-----------5--------4---------2----------|
A--------5------------------------------------------------------------------|
E---------------------------------------------------------------------------|
                                                                                    Repeat


G---------------------------------0--0--0-------------2--2--2--------4--4--4-|
D---------(0)--4--4--4--------2------------------4----------------5----------|
A------0---5--------------0------------------0------------0------------------|
E----------------------------------------------------------------------------|